b b

Bass Tab for Forty-Six & 2

[#212]

Transcribed by
PsYcHo MaN69 (morbidhumor@hotmail.com)
Added to t.d.n: 05/07/99 20:59:08


4 String Bass. Drop to D. 

Forty-six  & 2

Dropped D string

INTRO/MAIN RIFF

G|----7---5-7---8-7---5-7---3-5--------------------------|
D|--0---0-----0-----0-----0------------------------------|
A|-------------------------------------------------------|
D|-------------------------------------------------------|

AFTER YOU PLAY [^] THIS RIFF THREE TIMES PLAY THIS:

G|----7---5-7---8-7---13-12---5-7------------------------|
D|--0---0-----0-----0-------0----------------------------|
A|-------------------------------------------------------|
D|-------------------------------------------------------|

CONTINUE TO PLAY THESE RIFFS THREE TIMES AND
THEN PLAY THIS RIFF:
                                2x
D|--12--10--13p12--12--10--13p12-0-|:|---8-10------------|
A|---------------------------------|:|-------------------|
D|---------------------------------|:|-------------------|

(|:|)= MEANS REPEAT
CONTINUE TO PLAY THE MAIN RIFF ALL THE WAY TO THE CHORUS:

D|-------------------------------------------------------|
A|-------------------------------------------------------|
D|--0--12--0--10h12--0--13p12--0--10h12--0--8h10---------|

   ...my scabs a-gain...

D|-------------------------------------------------------|
A|-------------------------------------------------------|
D|-----0----0---0---0------------------------------------|

VERSE 2 RIFF:

D|--12p0--10p0--13p12-0--12p0--10p0--13p12--0--8h10------|
A|-------------------------------------------------------|
D|-------------------------------------------------------|
       ^     ^        ^     ^     ^         ^      
THESE ZEROS--^ SOMETIMES GO IN OTHER PLACES...
THEN PLAY THE CHORUS RIFF AGAIN BUT INSTEAD OF THE MY
SCABS AGAIN RIFF PLAY THIS:

D|-------------------------------------------------------|
A|-------------------------------------------------------|
D|--0--12--0--12--0--12--0--12---------------------------|

AND PROCEED TO PLAY THIS:
    ...i choose to live and to...

D|-------------------------------------------------------|
A|-------------------------------------------------------|
D|--5h7--0-0--3h5--0--5h7--0--3h5-5h7--0-0---------------|

MANY TIMES UNTIL IT GETS HEAVYER:

D|-------------------------------------------------------|
A|-----------3-------------------------------------------|
D|--0-0---0-----0--0--3-3-3-3----------------------------|

THEN PLAY THE VERSE 2 RIFF THROUGH THE WHOLE SOLO/INTER-
LUDE...THEN PLAY THE VERSE 2 RIFF BUT ON THE 4th STRING.
AND WHILE ADAM PLAYS THE CHORUS RIFF YOU PLAY THIS:

D|-------------------------------------------------------|
A|-------------------------------------------------------|
D|--0--0--0--0--0---0--0--0--0--0---0--0--0--0--0--------|

D|-------------------------------------------------------|
A|-------------------------------------------------------|
D|--0--0--0--0--0--0---0--0--0--0--0---0--0--0--0--0-----|

D|-------------------------------------------------------|
A|-------------------------------------------------------|
D|--0--0--0--0--0---0--0--0------------------------------|

THIS IS ALSO THE OUTRO